  0
SECTION
  2
HEADER
  9
$ACADVER
  1
AC1015
  9
$ACADMAINTVER
 70
     6
  9
$DWGCODEPAGE
  3
ANSI_1254
  9
$INSBASE
 10
0.0
 20
0.0
 30
0.0
  9
$EXTMIN
 10
0.0
 20
0.0
 30
0.0
  9
$EXTMAX
 10
279.4
 20
215.9
 30
0.0
  9
$LIMMIN
 10
0.0
 20
0.0
  9
$LIMMAX
 10
279.4
 20
215.9
  9
$ORTHOMODE
 70
     0
  9
$REGENMODE
 70
     1
  9
$FILLMODE
 70
     1
  9
$QTEXTMODE
 70
     0
  9
$MIRRTEXT
 70
     1
  9
$LTSCALE
 40
1.0
  9
$ATTMODE
 70
     1
  9
$TEXTSIZE
 40
3.5
  9
$TRACEWID
 40
1.0
  9
$TEXTSTYLE
  7
Standard
  9
$CLAYER
  8
0
  9
$CELTYPE
  6
ByLayer
  9
$CECOLOR
 62
   256
  9
$CELTSCALE
 40
1.0
  9
$DISPSILH
 70
     0
  9
$DIMSCALE
 40
1.0
  9
$DIMASZ
 40
3.5
  9
$DIMEXO
 40
1.0
  9
$DIMDLI
 40
3.75
  9
$DIMRND
 40
0.0
  9
$DIMDLE
 40
0.0
  9
$DIMEXE
 40
1.0
  9
$DIMTP
 40
0.0
  9
$DIMTM
 40
0.0
  9
$DIMTXT
 40
3.5
  9
$DIMCEN
 40
2.5
  9
$DIMTSZ
 40
0.0
  9
$DIMTOL
 70
     0
  9
$DIMLIM
 70
     0
  9
$DIMTIH
 70
     1
  9
$DIMTOH
 70
     1
  9
$DIMSE1
 70
     0
  9
$DIMSE2
 70
     0
  9
$DIMTAD
 70
     1
  9
$DIMZIN
 70
     0
  9
$DIMBLK
  1

  9
$DIMASO
 70
     1
  9
$DIMSHO
 70
     1
  9
$DIMPOST
  1

  9
$DIMAPOST
  1

  9
$DIMALT
 70
     0
  9
$DIMALTD
 70
     3
  9
$DIMALTF
 40
0.0393700787
  9
$DIMLFAC
 40
1.0
  9
$DIMTOFL
 70
     1
  9
$DIMTVP
 40
0.0
  9
$DIMTIX
 70
     0
  9
$DIMSOXD
 70
     0
  9
$DIMSAH
 70
     0
  9
$DIMBLK1
  1

  9
$DIMBLK2
  1

  9
$DIMSTYLE
  2
ISO-25
  9
$DIMCLRD
 70
     0
  9
$DIMCLRE
 70
     0
  9
$DIMCLRT
 70
     0
  9
$DIMTFAC
 40
1.0
  9
$DIMGAP
 40
1.524
  9
$DIMJUST
 70
     0
  9
$DIMSD1
 70
     0
  9
$DIMSD2
 70
     0
  9
$DIMTOLJ
 70
     0
  9
$DIMTZIN
 70
     0
  9
$DIMALTZ
 70
     0
  9
$DIMALTTZ
 70
     0
  9
$DIMUPT
 70
     0
  9
$DIMDEC
 70
     2
  9
$DIMTDEC
 70
     2
  9
$DIMALTU
 70
     2
  9
$DIMALTTD
 70
     3
  9
$DIMTXSTY
  7
Standard
  9
$DIMAUNIT
 70
     0
  9
$DIMADEC
 70
     2
  9
$DIMALTRND
 40
0.0
  9
$DIMAZIN
 70
     0
  9
$DIMDSEP
 70
    44
  9
$DIMATFIT
 70
     3
  9
$DIMFRAC
 70
     0
  9
$DIMLDRBLK
  1

  9
$DIMLUNIT
 70
     2
  9
$DIMLWD
 70
    -2
  9
$DIMLWE
 70
    -2
  9
$DIMTMOVE
 70
     0
  9
$LUNITS
 70
     2
  9
$LUPREC
 70
     2
  9
$SKETCHINC
 40
1.0
  9
$FILLETRAD
 40
10.0
  9
$AUNITS
 70
     0
  9
$AUPREC
 70
     2
  9
$MENU
  1
.
  9
$ELEVATION
 40
0.0
  9
$PELEVATION
 40
0.0
  9
$THICKNESS
 40
0.0
  9
$LIMCHECK
 70
     0
  9
$CHAMFERA
 40
0.0
  9
$CHAMFERB
 40
0.0
  9
$CHAMFERC
 40
0.0
  9
$CHAMFERD
 40
0.0
  9
$SKPOLY
 70
     0
  9
$TDCREATE
 40
2458985.651058079
  9
$TDUCREATE
 40
2458985.526058079
  9
$TDUPDATE
 40
2458985.651058414
  9
$TDUUPDATE
 40
2458985.526058414
  9
$TDINDWG
 40
0.0000000116
  9
$TDUSRTIMER
 40
0.0000000116
  9
$USRTIMER
 70
     1
  9
$ANGBASE
 50
0.0
  9
$ANGDIR
 70
     0
  9
$PDMODE
 70
     0
  9
$PDSIZE
 40
-1.0
  9
$PLINEWID
 40
0.0
  9
$SPLFRAME
 70
     0
  9
$SPLINETYPE
 70
     6
  9
$SPLINESEGS
 70
     8
  9
$HANDSEED
  5
C0
  9
$SURFTAB1
 70
     6
  9
$SURFTAB2
 70
     6
  9
$SURFTYPE
 70
     6
  9
$SURFU
 70
     6
  9
$SURFV
 70
     6
  9
$UCSBASE
  2

  9
$UCSNAME
  2

  9
$UCSORG
 10
0.0
 20
0.0
 30
0.0
  9
$UCSXDIR
 10
1.0
 20
0.0
 30
0.0
  9
$UCSYDIR
 10
0.0
 20
1.0
 30
0.0
  9
$UCSORTHOREF
  2

  9
$UCSORTHOVIEW
 70
     0
  9
$UCSORGTOP
 10
0.0
 20
0.0
 30
0.0
  9
$UCSORGBOTTOM
 10
0.0
 20
0.0
 30
0.0
  9
$UCSORGLEFT
 10
0.0
 20
0.0
 30
0.0
  9
$UCSORGRIGHT
 10
0.0
 20
0.0
 30
0.0
  9
$UCSORGFRONT
 10
0.0
 20
0.0
 30
0.0
  9
$UCSORGBACK
 10
0.0
 20
0.0
 30
0.0
  9
$PUCSBASE
  2

  9
$PUCSNAME
  2

  9
$PUCSORG
 10
0.0
 20
0.0
 30
0.0
  9
$PUCSXDIR
 10
1.0
 20
0.0
 30
0.0
  9
$PUCSYDIR
 10
0.0
 20
1.0
 30
0.0
  9
$PUCSORTHOREF
  2

  9
$PUCSORTHOVIEW
 70
     0
  9
$PUCSORGTOP
 10
0.0
 20
0.0
 30
0.0
  9
$PUCSORGBOTTOM
 10
0.0
 20
0.0
 30
0.0
  9
$PUCSORGLEFT
 10
0.0
 20
0.0
 30
0.0
  9
$PUCSORGRIGHT
 10
0.0
 20
0.0
 30
0.0
  9
$PUCSORGFRONT
 10
0.0
 20
0.0
 30
0.0
  9
$PUCSORGBACK
 10
0.0
 20
0.0
 30
0.0
  9
$USERI1
 70
     0
  9
$USERI2
 70
     0
  9
$USERI3
 70
     0
  9
$USERI4
 70
     0
  9
$USERI5
 70
     0
  9
$USERR1
 40
0.0
  9
$USERR2
 40
0.0
  9
$USERR3
 40
0.0
  9
$USERR4
 40
0.0
  9
$USERR5
 40
0.0
  9
$WORLDVIEW
 70
     1
  9
$SHADEDGE
 70
     3
  9
$SHADEDIF
 70
    70
  9
$TILEMODE
 70
     1
  9
$MAXACTVP
 70
    64
  9
$PINSBASE
 10
0.0
 20
0.0
 30
0.0
  9
$PLIMCHECK
 70
     0
  9
$PEXTMIN
 10
1.0000000000E+20
 20
1.0000000000E+20
 30
1.0000000000E+20
  9
$PEXTMAX
 10
-1.0000000000E+20
 20
-1.0000000000E+20
 30
-1.0000000000E+20
  9
$PLIMMIN
 10
0.0
 20
0.0
  9
$PLIMMAX
 10
420.0
 20
297.0
  9
$UNITMODE
 70
     0
  9
$VISRETAIN
 70
     1
  9
$PLINEGEN
 70
     0
  9
$PSLTSCALE
 70
     1
  9
$TREEDEPTH
 70
  3020
  9
$CMLSTYLE
  2
Standard
  9
$CMLJUST
 70
     0
  9
$CMLSCALE
 40
20.0
  9
$PROXYGRAPHICS
 70
     1
  9
$MEASUREMENT
 70
     1
  9
$CELWEIGHT
370
    -1
  9
$ENDCAPS
280
     0
  9
$JOINSTYLE
280
     0
  9
$LWDISPLAY
290
     1
  9
$INSUNITS
 70
     4
  9
$HYPERLINKBASE
  1

  9
$STYLESHEET
  1

  9
$XEDIT
290
     1
  9
$CEPSNTYPE
380
     0
  9
$PSTYLEMODE
290
     1
  9
$FINGERPRINTGUID
  2
{0456bf31-eb93-4676-a60b-a0dec5201042}
  9
$VERSIONGUID
  2
{FAEB1C32-E019-11D5-929B-00C0DF256EC4}
  9
$EXTNAMES
290
     1
  9
$PSVPSCALE
 40
0.0
  9
$OLESTARTUP
290
     0
  0
ENDSEC
  0
SECTION
  2
CLASSES
  0
CLASS
  1
ACDBDICTIONARYWDFLT
  2
AcDbDictionaryWithDefault
  3
ObjectDBX Classes
 90
        0
280
     0
281
     0
  0
CLASS
  1
VISUALSTYLE
  2
AcDbVisualStyle
  3
ObjectDBX Classes
 90
     4095
280
     0
281
     0
  0
CLASS
  1
MATERIAL
  2
AcDbMaterial
  3
ObjectDBX Classes
 90
     1153
280
     0
281
     0
  0
CLASS
  1
SCALE
  2
AcDbScale
  3
ObjectDBX Classes
 90
     1153
280
     0
281
     0
  0
CLASS
  1
TABLESTYLE
  2
AcDbTableStyle
  3
ObjectDBX Classes
 90
     4095
280
     0
281
     0
  0
CLASS
  1
MLEADERSTYLE
  2
AcDbMLeaderStyle
  3
ACDB_MLEADERSTYLE_CLASS
 90
     4095
280
     0
281
     0
  0
CLASS
  1
SUN
  2
AcDbSun
  3
SCENEOE
 90
     1153
280
     0
281
     0
  0
CLASS
  1
ACDBPLACEHOLDER
  2
AcDbPlaceHolder
  3
ObjectDBX Classes
 90
        0
280
     0
281
     0
  0
CLASS
  1
LAYOUT
  2
AcDbLayout
  3
ObjectDBX Classes
 90
        0
280
     0
281
     0
  0
ENDSEC
  0
SECTION
  2
TABLES
  0
TABLE
  2
VPORT
  5
8
330
0
100
AcDbSymbolTable
 70
     1
  0
VPORT
  5
29
330
8
100
AcDbSymbolTableRecord
100
AcDbViewportTableRecord
  2
*Active
 70
     0
 10
0.0
 20
0.0
 11
1.0
 21
1.0
 12
139.7
 22
107.95
 13
0.0
 23
0.0
 14
10.0
 24
10.0
 15
10.0
 25
10.0
 16
0.0
 26
0.0
 36
1.0
 17
0.0
 27
0.0
 37
0.0
 40
215.9
 41
1.2941176471
 42
50.0
 43
0.0
 44
0.0
 50
0.0
 51
0.0
 71
     0
 72
  2000
 73
     1
 74
     3
 75
     0
 76
     0
 77
     0
 78
     0
281
     0
 65
     1
110
0.0
120
0.0
130
0.0
111
1.0
121
0.0
131
0.0
112
0.0
122
1.0
132
0.0
 79
     0
146
0.0
  0
ENDTAB
  0
TABLE
  2
LTYPE
  5
5
330
0
100
AcDbSymbolTable
 70
     6
  0
LTYPE
  5
14
330
5
100
AcDbSymbolTableRecord
100
AcDbLinetypeTableRecord
  2
ByBlock
 70
     0
  3

 72
    65
 73
     0
 40
0.0
  0
LTYPE
  5
15
330
5
100
AcDbSymbolTableRecord
100
AcDbLinetypeTableRecord
  2
ByLayer
 70
     0
  3

 72
    65
 73
     0
 40
0.0
  0
LTYPE
  5
16
330
5
100
AcDbSymbolTableRecord
100
AcDbLinetypeTableRecord
  2
Continuous
 70
     0
  3
Solid line
 72
    65
 73
     0
 40
0.0
  0
LTYPE
  5
6E
330
5
100
AcDbSymbolTableRecord
100
AcDbLinetypeTableRecord
  2
HIDDEN
 70
     0
  3
Hidden __ __ __ __ __ __ __ __ __ __ __ __ __ __
 72
    65
 73
     2
 40
1.905
 49
1.27
 74
     0
 49
-0.635
 74
     0
  0
LTYPE
  5
6F
330
5
100
AcDbSymbolTableRecord
100
AcDbLinetypeTableRecord
  2
PHANTOM
 70
     0
  3
Phantom ______  __  __  ______  __  __  ______
 72
    65
 73
     6
 40
12.7
 49
6.35
 74
     0
 49
-1.27
 74
     0
 49
1.27
 74
     0
 49
-1.27
 74
     0
 49
1.27
 74
     0
 49
-1.27
 74
     0
  0
LTYPE
  5
70
330
5
100
AcDbSymbolTableRecord
100
AcDbLinetypeTableRecord
  2
CENTER
 70
     0
  3
Center ____ _ ____ _ ____ _ ____ _ ____ _ ____
 72
    65
 73
     4
 40
10.16
 49
6.35
 74
     0
 49
-1.27
 74
     0
 49
1.27
 74
     0
 49
-1.27
 74
     0
  0
LTYPE
  5
71
330
5
100
AcDbSymbolTableRecord
100
AcDbLinetypeTableRecord
  2
CENTERX2
 70
     0
  3
Center (2x) ________  __  ________  __  _____
 72
    65
 73
     4
 40
20.32
 49
12.7
 74
     0
 49
-2.54
 74
     0
 49
2.54
 74
     0
 49
-2.54
 74
     0
  0
LTYPE
  5
72
330
5
100
AcDbSymbolTableRecord
100
AcDbLinetypeTableRecord
  2
DOT2
 70
     0
  3
Dot (.5x) ........................................
 72
    65
 73
     2
 40
0.635
 49
0.0
 74
     0
 49
-0.635
 74
     0
  0
ENDTAB
  0
TABLE
  2
LAYER
  5
2
330
0
100
AcDbSymbolTable
 70
    17
  0
LAYER
  5
10
330
2
100
AcDbSymbolTableRecord
100
AcDbLayerTableRecord
  2
0
 70
     0
 62
     7
  6
Continuous
370
    -3
390
F
  0
LAYER
  5
73
330
2
100
AcDbSymbolTableRecord
100
AcDbLayerTableRecord
  2
FORMAT
 70
     0
 62
     7
  6
Continuous
370
    -3
390
F
  0
LAYER
  5
74
330
2
100
AcDbSymbolTableRecord
100
AcDbLayerTableRecord
  2
YARDIMCI_GEOMETRI
 70
     0
 62
    -6
  6
Continuous
290
     0
370
    -3
390
F
  0
LAYER
  5
75
330
2
100
AcDbSymbolTableRecord
100
AcDbLayerTableRecord
  2
SAYFA_CERCEVESI
 70
     0
 62
     7
  6
Continuous
370
    25
390
F
  0
LAYER
  5
76
330
2
100
AcDbSymbolTableRecord
100
AcDbLayerTableRecord
  2
ANTET
 70
     0
 62
     7
  6
Continuous
370
    -3
390
F
  0
LAYER
  5
77
330
2
100
AcDbSymbolTableRecord
100
AcDbLayerTableRecord
  2
OLCU
 70
     0
 62
   150
  6
Continuous
370
    -3
390
F
  0
LAYER
  5
78
330
2
100
AcDbSymbolTableRecord
100
AcDbLayerTableRecord
  2
METIN
 70
     0
 62
    96
  6
Continuous
370
    -3
390
F
  0
LAYER
  5
79
330
2
100
AcDbSymbolTableRecord
100
AcDbLayerTableRecord
  2
BALON
 70
     0
 62
     5
  6
Continuous
370
    -3
390
F
  0
LAYER
  5
7A
330
2
100
AcDbSymbolTableRecord
100
AcDbLayerTableRecord
  2
VURGU
 70
     0
 62
     7
  6
Continuous
370
    -3
390
F
  0
LAYER
  5
7B
330
2
100
AcDbSymbolTableRecord
100
AcDbLayerTableRecord
  2
SILIK
 70
     0
 62
     7
  6
Continuous
370
    -3
390
F
  0
LAYER
  5
7C
330
2
100
AcDbSymbolTableRecord
100
AcDbLayerTableRecord
  2
MODEL
 70
     0
 62
     7
  6
Continuous
370
    -3
390
F
  0
LAYER
  5
7D
330
2
100
AcDbSymbolTableRecord
100
AcDbLayerTableRecord
  2
DETAYLANDıRMA
 70
     0
 62
   190
  6
Continuous
370
    -3
390
F
  0
LAYER
  5
7E
330
2
100
AcDbSymbolTableRecord
100
AcDbLayerTableRecord
  2
TOLERANS
 70
     0
 62
   230
  6
Continuous
370
    -3
390
F
  0
LAYER
  5
7F
330
2
100
AcDbSymbolTableRecord
100
AcDbLayerTableRecord
  2
MERKEZ_CIZGILERI
 70
     0
 62
    30
  6
Continuous
370
    -3
390
F
  0
LAYER
  5
80
330
2
100
AcDbSymbolTableRecord
100
AcDbLayerTableRecord
  2
KESIT-DETAY_CIZGILERI
 70
     0
 62
     7
  6
Continuous
370
    -3
390
F
  0
LAYER
  5
81
330
2
100
AcDbSymbolTableRecord
100
AcDbLayerTableRecord
  2
\U+041E\U+0421\U+0415\U+0412\U+042B\U+0415
 70
     0
 62
     7
  6
Continuous
370
    -3
390
F
  0
LAYER
  5
82
330
2
100
AcDbSymbolTableRecord
100
AcDbLayerTableRecord
  2
\U+0412\U+041E\U+0414\U+042F\U+041D\U+042B\U+0415_\U+0417\U+041D\U+0410\U+041A\U+0418
 70
     0
 62
    11
  6
Continuous
370
    -3
390
F
  0
ENDTAB
  0
TABLE
  2
STYLE
  5
3
330
0
100
AcDbSymbolTable
 70
     1
  0
STYLE
  5
11
330
3
100
AcDbSymbolTableRecord
100
AcDbTextStyleTableRecord
  2
Standard
 70
     0
 40
0.0
 41
1.0
 50
0.0
 71
     0
 42
3.5
  3
txt
  4

  0
ENDTAB
  0
TABLE
  2
VIEW
  5
6
330
0
100
AcDbSymbolTable
 70
     0
  0
ENDTAB
  0
TABLE
  2
UCS
  5
7
330
0
100
AcDbSymbolTable
 70
     0
  0
ENDTAB
  0
TABLE
  2
APPID
  5
9
330
0
100
AcDbSymbolTable
 70
     1
  0
APPID
  5
12
330
9
100
AcDbSymbolTableRecord
100
AcDbRegAppTableRecord
  2
ACAD
 70
     0
  0
ENDTAB
  0
TABLE
  2
DIMSTYLE
  5
A
330
0
100
AcDbSymbolTable
 70
     1
100
AcDbDimStyleTable
  0
DIMSTYLE
105
27
330
A
100
AcDbSymbolTableRecord
100
AcDbDimStyleTableRecord
  2
ISO-25
 70
     0
 41
2.5
 42
0.625
 43
3.75
 44
1.25
 73
     0
 74
     0
 77
     1
 78
     8
140
2.5
141
2.5
143
0.0393700787
147
0.625
171
     3
172
     1
178
     0
271
     2
272
     2
274
     3
278
    44
283
     0
284
     8
340
11
  0
ENDTAB
  0
TABLE
  2
BLOCK_RECORD
  5
1
330
0
100
AcDbSymbolTable
 70
     1
  0
BLOCK_RECORD
  5
1F
330
1
100
AcDbSymbolTableRecord
100
AcDbBlockTableRecord
  2
*Model_Space
340
22
  0
BLOCK_RECORD
  5
1B
330
1
100
AcDbSymbolTableRecord
100
AcDbBlockTableRecord
  2
*Paper_Space
340
1E
  0
BLOCK_RECORD
  5
23
330
1
100
AcDbSymbolTableRecord
100
AcDbBlockTableRecord
  2
*Paper_Space0
340
26
  0
ENDTAB
  0
ENDSEC
  0
SECTION
  2
BLOCKS
  0
BLOCK
  5
20
330
1F
100
AcDbEntity
  8
0
100
AcDbBlockBegin
  2
*Model_Space
 70
     0
 10
0.0
 20
0.0
 30
0.0
  3
*Model_Space
  1

  0
ENDBLK
  5
21
330
1F
100
AcDbEntity
  8
0
100
AcDbBlockEnd
  0
BLOCK
  5
1C
330
1B
100
AcDbEntity
 67
     1
  8
0
100
AcDbBlockBegin
  2
*Paper_Space
 70
     0
 10
0.0
 20
0.0
 30
0.0
  3
*Paper_Space
  1

  0
ENDBLK
  5
1D
330
1B
100
AcDbEntity
 67
     1
  8
0
100
AcDbBlockEnd
  0
BLOCK
  5
24
330
23
100
AcDbEntity
  8
0
100
AcDbBlockBegin
  2
*Paper_Space0
 70
     0
 10
0.0
 20
0.0
 30
0.0
  3
*Paper_Space0
  1

  0
ENDBLK
  5
25
330
23
100
AcDbEntity
  8
0
100
AcDbBlockEnd
  0
ENDSEC
  0
SECTION
  2
ENTITIES
  0
CIRCLE
  5
83
330
1F
100
AcDbEntity
  8
0
  6
Continuous
 62
     7
370
    25
100
AcDbCircle
 10
135.9944086538
 20
118.27271875
 30
0.0
 40
54.99999999999999
  0
CIRCLE
  5
84
330
1F
100
AcDbEntity
  8
0
  6
Continuous
 62
     7
370
    25
100
AcDbCircle
 10
135.9944086538
 20
118.27271875
 30
0.0
 40
48.39999999999998
  0
CIRCLE
  5
85
330
1F
100
AcDbEntity
  8
0
  6
Continuous
 62
     7
370
    25
100
AcDbCircle
 10
135.9944086538
 20
118.27271875
 30
0.0
 40
62.50000000000001
  0
CIRCLE
  5
86
330
1F
100
AcDbEntity
  8
0
  6
Continuous
 62
     7
370
    25
100
AcDbCircle
 10
135.9944086538
 20
118.27271875
 30
0.0
 40
79.0
  0
LINE
  5
87
330
1F
100
AcDbEntity
  8
0
  6
Continuous
 62
     7
370
    25
100
AcDbLine
 10
214.9944086538
 20
232.5277487249
 30
0.0
 11
214.9944086538
 21
249.5277487249
 31
0.0
  0
LINE
  5
88
330
1F
100
AcDbEntity
  8
0
  6
Continuous
 62
     7
370
    25
100
AcDbLine
 10
56.9944086538
 20
249.5277487249
 30
0.0
 11
56.9944086538
 21
232.5277487249
 31
0.0
  0
LINE
  5
89
330
1F
100
AcDbEntity
  8
0
  6
Continuous
 62
     7
370
    25
100
AcDbLine
 10
198.4944086538
 20
249.5277487249
 30
0.0
 11
190.9944086538
 21
274.5277487249
 31
0.0
  0
LINE
  5
8A
330
1F
100
AcDbEntity
  8
0
  6
Continuous
 62
     7
370
    25
100
AcDbLine
 10
80.9944086538
 20
274.5277487249
 30
0.0
 11
73.4944086538
 21
249.5277487249
 31
0.0
  0
LINE
  5
8B
330
1F
100
AcDbEntity
  8
0
  6
Continuous
 62
     7
370
    25
100
AcDbLine
 10
190.9944086538
 20
274.5277487249
 30
0.0
 11
190.9944086538
 21
387.5277487249
 31
0.0
  0
LINE
  5
8C
330
1F
100
AcDbEntity
  8
0
  6
Continuous
 62
     7
370
    25
100
AcDbLine
 10
80.9944086538
 20
387.5277487249
 30
0.0
 11
80.9944086538
 21
274.5277487249
 31
0.0
  0
LINE
  5
8D
330
1F
100
AcDbEntity
  8
0
  6
Continuous
 62
     7
370
    25
100
AcDbLine
 10
214.9944086538
 20
232.5277487249
 30
0.0
 11
56.9944086538
 21
232.5277487249
 31
0.0
  0
LINE
  5
8E
330
1F
100
AcDbEntity
  8
0
  6
Continuous
 62
     7
370
    25
100
AcDbLine
 10
214.9944086538
 20
249.5277487249
 30
0.0
 11
56.9944086538
 21
249.5277487249
 31
0.0
  0
LINE
  5
8F
330
1F
100
AcDbEntity
  8
0
  6
Continuous
 62
     7
370
    25
100
AcDbLine
 10
190.9944086538
 20
274.5277487249
 30
0.0
 11
80.9944086538
 21
274.5277487249
 31
0.0
  0
LINE
  5
90
330
1F
100
AcDbEntity
  8
0
  6
Continuous
 62
     7
370
    25
100
AcDbLine
 10
190.9944086538
 20
387.5277487249
 30
0.0
 11
80.9944086538
 21
387.5277487249
 31
0.0
  0
LINE
  5
91
330
1F
100
AcDbEntity
  8
0
  6
Continuous
 62
     7
370
    25
100
AcDbLine
 10
-16.7351381854
 20
197.27271875
 30
0.0
 11
-33.7351381854
 21
197.27271875
 31
0.0
  0
LINE
  5
92
330
1F
100
AcDbEntity
  8
0
  6
Continuous
 62
     7
370
    25
100
AcDbLine
 10
-33.7351381854
 20
39.27271875
 30
0.0
 11
-16.7351381854
 21
39.27271875
 31
0.0
  0
LINE
  5
93
330
1F
100
AcDbEntity
  8
0
  6
Continuous
 62
     7
370
    25
100
AcDbLine
 10
-33.7351381854
 20
180.77271875
 30
0.0
 11
-58.7351381854
 21
173.27271875
 31
0.0
  0
LINE
  5
94
330
1F
100
AcDbEntity
  8
0
  6
Continuous
 62
     7
370
    25
100
AcDbLine
 10
-58.7351381854
 20
63.27271875
 30
0.0
 11
-33.7351381854
 21
55.77271875
 31
0.0
  0
LINE
  5
95
330
1F
100
AcDbEntity
  8
0
  6
Continuous
 62
     7
370
    25
100
AcDbLine
 10
-58.7351381854
 20
173.27271875
 30
0.0
 11
-171.7351381854
 21
173.27271875
 31
0.0
  0
LINE
  5
96
330
1F
100
AcDbEntity
  8
0
  6
Continuous
 62
     7
370
    25
100
AcDbLine
 10
-171.7351381854
 20
63.27271875
 30
0.0
 11
-58.7351381854
 21
63.27271875
 31
0.0
  0
LINE
  5
97
330
1F
100
AcDbEntity
  8
0
  6
Continuous
 62
     7
370
    25
100
AcDbLine
 10
-16.7351381854
 20
197.27271875
 30
0.0
 11
-16.7351381854
 21
39.27271875
 31
0.0
  0
LINE
  5
98
330
1F
100
AcDbEntity
  8
0
  6
Continuous
 62
     7
370
    25
100
AcDbLine
 10
-33.7351381854
 20
197.27271875
 30
0.0
 11
-33.7351381854
 21
39.27271875
 31
0.0
  0
LINE
  5
99
330
1F
100
AcDbEntity
  8
0
  6
Continuous
 62
     7
370
    25
100
AcDbLine
 10
-58.7351381854
 20
173.27271875
 30
0.0
 11
-58.7351381854
 21
63.27271875
 31
0.0
  0
LINE
  5
9A
330
1F
100
AcDbEntity
  8
0
  6
Continuous
 62
     7
370
    25
100
AcDbLine
 10
-171.7351381854
 20
173.27271875
 30
0.0
 11
-171.7351381854
 21
63.27271875
 31
0.0
  0
LINE
  5
9B
330
1F
100
AcDbEntity
  8
0
  6
Continuous
 62
     7
370
    25
100
AcDbLine
 10
56.9944086538
 20
-30.479431426
 30
0.0
 11
56.9944086538
 21
-47.479431426
 31
0.0
  0
LINE
  5
9C
330
1F
100
AcDbEntity
  8
0
  6
Continuous
 62
     7
370
    25
100
AcDbLine
 10
214.9944086538
 20
-47.479431426
 30
0.0
 11
214.9944086538
 21
-30.479431426
 31
0.0
  0
LINE
  5
9D
330
1F
100
AcDbEntity
  8
0
  6
Continuous
 62
     7
370
    25
100
AcDbLine
 10
73.4944086538
 20
-47.479431426
 30
0.0
 11
80.9944086538
 21
-72.479431426
 31
0.0
  0
LINE
  5
9E
330
1F
100
AcDbEntity
  8
0
  6
Continuous
 62
     7
370
    25
100
AcDbLine
 10
190.9944086538
 20
-72.479431426
 30
0.0
 11
198.4944086538
 21
-47.479431426
 31
0.0
  0
LINE
  5
9F
330
1F
100
AcDbEntity
  8
0
  6
Continuous
 62
     7
370
    25
100
AcDbLine
 10
80.9944086538
 20
-72.479431426
 30
0.0
 11
80.9944086538
 21
-185.479431426
 31
0.0
  0
LINE
  5
A0
330
1F
100
AcDbEntity
  8
0
  6
Continuous
 62
     7
370
    25
100
AcDbLine
 10
190.9944086538
 20
-185.479431426
 30
0.0
 11
190.9944086538
 21
-72.479431426
 31
0.0
  0
LINE
  5
A1
330
1F
100
AcDbEntity
  8
0
  6
Continuous
 62
     7
370
    25
100
AcDbLine
 10
56.9944086538
 20
-30.479431426
 30
0.0
 11
214.9944086538
 21
-30.479431426
 31
0.0
  0
LINE
  5
A2
330
1F
100
AcDbEntity
  8
0
  6
Continuous
 62
     7
370
    25
100
AcDbLine
 10
56.9944086538
 20
-47.479431426
 30
0.0
 11
214.9944086538
 21
-47.479431426
 31
0.0
  0
LINE
  5
A3
330
1F
100
AcDbEntity
  8
0
  6
Continuous
 62
     7
370
    25
100
AcDbLine
 10
80.9944086538
 20
-72.479431426
 30
0.0
 11
190.9944086538
 21
-72.479431426
 31
0.0
  0
LINE
  5
A4
330
1F
100
AcDbEntity
  8
0
  6
Continuous
 62
     7
370
    25
100
AcDbLine
 10
80.9944086538
 20
-185.479431426
 30
0.0
 11
190.9944086538
 21
-185.479431426
 31
0.0
  0
LINE
  5
A5
330
1F
100
AcDbEntity
  8
0
  6
Continuous
 62
     7
370
    25
100
AcDbLine
 10
298.7213676234
 20
39.27271875
 30
0.0
 11
315.7213676234
 21
39.27271875
 31
0.0
  0
LINE
  5
A6
330
1F
100
AcDbEntity
  8
0
  6
Continuous
 62
     7
370
    25
100
AcDbLine
 10
315.7213676234
 20
197.27271875
 30
0.0
 11
298.7213676234
 21
197.27271875
 31
0.0
  0
LINE
  5
A7
330
1F
100
AcDbEntity
  8
0
  6
Continuous
 62
     7
370
    25
100
AcDbLine
 10
315.7213676234
 20
55.77271875
 30
0.0
 11
340.7213676234
 21
63.27271875
 31
0.0
  0
LINE
  5
A8
330
1F
100
AcDbEntity
  8
0
  6
Continuous
 62
     7
370
    25
100
AcDbLine
 10
340.7213676234
 20
173.27271875
 30
0.0
 11
315.7213676234
 21
180.77271875
 31
0.0
  0
LINE
  5
A9
330
1F
100
AcDbEntity
  8
0
  6
Continuous
 62
     7
370
    25
100
AcDbLine
 10
340.7213676234
 20
63.27271875
 30
0.0
 11
453.7213676234
 21
63.27271875
 31
0.0
  0
LINE
  5
AA
330
1F
100
AcDbEntity
  8
0
  6
Continuous
 62
     7
370
    25
100
AcDbLine
 10
453.7213676234
 20
173.27271875
 30
0.0
 11
340.7213676234
 21
173.27271875
 31
0.0
  0
LINE
  5
AB
330
1F
100
AcDbEntity
  8
0
  6
Continuous
 62
     7
370
    25
100
AcDbLine
 10
298.7213676234
 20
118.27271875
 30
0.0
 11
298.7213676234
 21
197.27271875
 31
0.0
  0
LINE
  5
AC
330
1F
100
AcDbEntity
  8
0
  6
Continuous
 62
     7
370
    25
100
AcDbLine
 10
298.7213676234
 20
39.27271875
 30
0.0
 11
298.7213676234
 21
118.27271875
 31
0.0
  0
LINE
  5
AD
330
1F
100
AcDbEntity
  8
0
  6
Continuous
 62
     7
370
    25
100
AcDbLine
 10
315.7213676234
 20
118.27271875
 30
0.0
 11
315.7213676234
 21
197.27271875
 31
0.0
  0
LINE
  5
AE
330
1F
100
AcDbEntity
  8
0
  6
Continuous
 62
     7
370
    25
100
AcDbLine
 10
315.7213676234
 20
39.27271875
 30
0.0
 11
315.7213676234
 21
118.27271875
 31
0.0
  0
LINE
  5
AF
330
1F
100
AcDbEntity
  8
0
  6
Continuous
 62
     7
370
    25
100
AcDbLine
 10
340.7213676234
 20
118.27271875
 30
0.0
 11
340.7213676234
 21
173.27271875
 31
0.0
  0
LINE
  5
B0
330
1F
100
AcDbEntity
  8
0
  6
Continuous
 62
     7
370
    25
100
AcDbLine
 10
340.7213676234
 20
63.27271875
 30
0.0
 11
340.7213676234
 21
118.27271875
 31
0.0
  0
LINE
  5
B1
330
1F
100
AcDbEntity
  8
0
  6
Continuous
 62
     7
370
    25
100
AcDbLine
 10
453.7213676234
 20
118.27271875
 30
0.0
 11
453.7213676234
 21
173.27271875
 31
0.0
  0
LINE
  5
B2
330
1F
100
AcDbEntity
  8
0
  6
Continuous
 62
     7
370
    25
100
AcDbLine
 10
453.7213676234
 20
63.27271875
 30
0.0
 11
453.7213676234
 21
118.27271875
 31
0.0
  0
LINE
  5
B3
330
1F
100
AcDbEntity
  8
0
  6
Continuous
 62
     7
370
    25
100
AcDbLine
 10
393.9943609543
 20
-40.3654343386
 30
0.0
 11
314.0912946802
 21
5.7616239794
 31
0.0
  0
LINE
  5
B4
330
1F
100
AcDbEntity
  8
0
  6
Continuous
 62
     7
370
    25
100
AcDbLine
 10
259.0957643852
 20
-89.5037508825
 30
0.0
 11
338.9988306593
 21
-135.6308092005
 31
0.0
  0
LINE
  5
B5
330
1F
100
AcDbEntity
  8
0
  6
Continuous
 62
     7
370
    25
100
AcDbLine
 10
435.6918705558
 20
-36.7248319897
 30
0.0
 11
423.6710552756
 21
-29.7853630392
 31
0.0
  0
LINE
  5
B6
330
1F
100
AcDbEntity
  8
0
  6
Continuous
 62
     7
370
    25
100
AcDbLine
 10
344.6774753973
 20
-166.6210832954
 30
0.0
 11
356.6982906775
 21
-173.5605522459
 31
0.0
  0
LINE
  5
B7
330
1F
100
AcDbEntity
  8
0
  6
Continuous
 62
     7
370
    25
100
AcDbLine
 10
408.0802448038
 20
-41.479736419
 30
0.0
 11
391.0434864407
 21
-38.661930742
 31
0.0
  0
LINE
  5
B8
330
1F
100
AcDbEntity
  8
0
  6
Continuous
 62
     7
370
    25
100
AcDbLine
 10
336.0479561457
 20
-133.9273056039
 30
0.0
 11
347.007878883
 21
-147.2716399053
 31
0.0
  0
LWPOLYLINE
  5
B9
330
1F
100
AcDbEntity
  8
0
  6
Continuous
 62
     7
370
    25
100
AcDbPolyline
 90
       56
 70
   128
 43
0.0
 10
393.9943609543
 20
-40.3654343386
 10
394.7847916995
 20
-40.8487571562
 10
396.2887329299
 20
-41.932059674
 10
397.6918669987
 20
-43.1712351641
 10
398.9894461445
 20
-44.5620906489
 10
400.1770797701
 20
-46.0999199136
 10
401.2507492992
 20
-47.7795194308
 10
402.2068217741
 20
-49.5952059675
 10
403.0420621482
 20
-51.540835815
 10
403.7536442323
 20
-53.609825578
 10
404.339160258
 20
-55.7951744499
 10
404.7966290244
 20
-58.0894879019
 10
405.124502602
 20
-60.4850027036
 10
405.3216715703
 20
-62.9736131912
 10
405.3874687721
 20
-65.5468986944
 10
405.3216715703
 20
-68.1961520298
 10
405.124502602
 20
-70.9124089626
 10
404.7966290244
 20
-73.6864785391
 10
404.339160258
 20
-76.5089741862
 10
403.7536442323
 20
-79.3703454718
 10
403.0420621482
 20
-82.2609104214
 10
402.2068217741
 20
-85.1708882781
 10
401.2507492992
 20
-88.090432598
 10
400.1770797701
 20
-91.0096645673
 10
398.9894461445
 20
-93.918706429
 10
397.6918669987
 20
-96.8077149064
 10
396.2887329299
 20
-99.6669145092
 10
394.7847916995
 20
-102.486630611
 10
393.1851321686
 20
-105.2573221852
 10
391.4951670788
 20
-107.9696140884
 10
389.7206147368
 20
-110.6143287834
 10
387.8674796662
 20
-113.1825173929
 10
385.9420322894
 20
-115.6654899796
 10
383.9507877109
 20
-118.0548449501
 10
381.9004836719
 20
-120.3424974836
 10
379.7980577524
 20
-122.520706888
 10
377.6506238962
 20
-124.5821027923
 10
375.4654483396
 20
-126.5197100852
 10
373.2499250251
 20
-128.3269725169
 10
371.0115505822
 20
-129.9977748835
 10
368.7578989615
 20
-131.5264637187
 10
366.4965958068
 20
-132.9078664232
 10
364.2352926521
 20
-134.1373087677
 10
361.9816410314
 20
-135.2106307085
 10
359.7432665885
 20
-136.1242004637
 10
357.527743274
 20
-136.8749268026
 10
355.3425677174
 20
-137.4602695048
 10
353.1951338612
 20
-137.878247956
 10
351.0927079417
 20
-138.1274478493
 10
349.0424039027
 20
-138.2070259713
 10
347.0511593242
 20
-138.1167130547
 10
345.1257119474
 20
-137.8568146898
 10
343.2725768768
 20
-137.4282102905
 10
341.4980245348
 20
-136.8323501184
 10
339.808059445
 20
-136.0712503756
 10
338.9988306593
 20
-135.6308092005
  0
LWPOLYLINE
  5
BA
330
1F
100
AcDbEntity
  8
0
  6
Continuous
 62
     7
370
    25
100
AcDbPolyline
 90
      109
 70
   128
 43
0.0
 10
247.7026565675
 20
-64.3222865267
 10
247.7684537692
 20
-61.6730331913
 10
247.9656227376
 20
-58.9567762585
 10
248.2934963151
 20
-56.1827066819
 10
248.7509650815
 20
-53.3602110349
 10
249.3364811072
 20
-50.4988397492
 10
250.0480631913
 20
-47.6082747997
 10
250.8833035654
 20
-44.698296943
 10
251.8393760403
 20
-41.7787526231
 10
252.9130455694
 20
-38.8595206538
 10
254.100679195
 20
-35.950478792
 10
255.3982583408
 20
-33.0614703147
 10
256.8013924096
 20
-30.2022707119
 10
258.30533364
 20
-27.38255461
 10
259.9049931709
 20
-24.6118630359
 10
261.5949582608
 20
-21.8995711327
 10
263.3695106027
 20
-19.2548564376
 10
265.2226456733
 20
-16.6866678281
 10
267.1480930501
 20
-14.2036952415
 10
269.1393376286
 20
-11.814340271
 10
271.1896416676
 20
-9.5266877375
 10
273.2920675871
 20
-7.3484783331
 10
275.4395014433
 20
-5.2870824288
 10
277.6246769999
 20
-3.3494751359
 10
279.8402003144
 20
-1.5422127042
 10
282.0785747573
 20
0.1285896625
 10
284.332226378
 20
1.6572784976
 10
286.5935295327
 20
3.0386812022
 10
288.8548326875
 20
4.2681235467
 10
291.1084843081
 20
5.3414454874
 10
293.346858751
 20
6.2550152426
 10
295.5623820655
 20
7.0057415815
 10
297.7475576221
 20
7.5910842838
 10
299.8949914784
 20
8.0090627349
 10
301.9974173979
 20
8.2582626283
 10
304.0477214368
 20
8.3378407502
 10
306.0389660153
 20
8.2475278336
 10
307.9644133921
 20
7.9876294688
 10
309.8175484627
 20
7.5590250695
 10
311.5921008047
 20
6.9631648973
 10
313.2820658945
 20
6.2020651546
 10
314.8817254254
 20
5.2783011618
 10
316.3856666558
 20
4.194998644
 10
317.7888007246
 20
2.9558231539
 10
319.0863798704
 20
1.5649676691
 10
320.274013496
 20
0.0271384044
 10
321.3476830251
 20
-1.6524611128
 10
322.3037555001
 20
-3.4681476495
 10
323.1389958741
 20
-5.413777497
 10
323.8505779582
 20
-7.48276726
 10
324.4360939839
 20
-9.6681161319
 10
324.8935627503
 20
-11.9624295839
 10
325.2214363279
 20
-14.3579443856
 10
325.4186052962
 20
-16.8465548732
 10
325.484402498
 20
-19.4198403764
 10
325.4186052962
 20
-22.0690937118
 10
325.2214363279
 20
-24.7853506446
 10
324.8935627503
 20
-27.5594202212
 10
324.4360939839
 20
-30.3819158682
 10
323.8505779582
 20
-33.2432871538
 10
323.1389958741
 20
-36.1338521034
 10
322.3037555001
 20
-39.0438299601
 10
321.3476830251
 20
-41.96337428
 10
320.274013496
 20
-44.8826062493
 10
319.0863798704
 20
-47.791648111
 10
317.7888007246
 20
-50.6806565884
 10
316.3856666558
 20
-53.5398561912
 10
314.8817254254
 20
-56.3595722931
 10
313.2820658945
 20
-59.1302638672
 10
311.5921008047
 20
-61.8425557704
 10
309.8175484627
 20
-64.4872704654
 10
307.9644133921
 20
-67.0554590749
 10
306.0389660153
 20
-69.5384316616
 10
304.0477214368
 20
-71.9277866321
 10
301.9974173979
 20
-74.2154391656
 10
299.8949914784
 20
-76.39364857
 10
297.7475576221
 20
-78.4550444743
 10
295.5623820655
 20
-80.3926517672
 10
293.346858751
 20
-82.1999141989
 10
291.1084843081
 20
-83.8707165655
 10
288.8548326875
 20
-85.3994054007
 10
286.5935295327
 20
-86.7808081053
 10
284.332226378
 20
-88.0102504498
 10
282.0785747573
 20
-89.0835723905
 10
279.8402003144
 20
-89.9971421457
 10
277.6246769999
 20
-90.7478684846
 10
275.4395014433
 20
-91.3332111868
 10
273.2920675871
 20
-91.751189638
 10
271.1896416676
 20
-92.0003895314
 10
269.1393376286
 20
-92.0799676533
 10
267.1480930501
 20
-91.9896547367
 10
265.2226456733
 20
-91.7297563718
 10
263.3695106027
 20
-91.3011519725
 10
261.5949582608
 20
-90.7052918004
 10
259.9049931709
 20
-89.9441920577
 10
258.30533364
 20
-89.0204280649
 10
256.8013924096
 20
-87.9371255471
 10
255.3982583408
 20
-86.697950057
 10
254.100679195
 20
-85.3070945722
 10
252.9130455694
 20
-83.7692653075
 10
251.8393760403
 20
-82.0896657903
 10
250.8833035654
 20
-80.2739792536
 10
250.0480631913
 20
-78.328349406
 10
249.3364811072
 20
-76.2593596431
 10
248.7509650815
 20
-74.0740107712
 10
248.2934963151
 20
-71.7796973191
 10
247.9656227376
 20
-69.3841825174
 10
247.7684537692
 20
-66.8955720299
 10
247.7026565675
 20
-64.3222865267
  0
LWPOLYLINE
  5
BB
330
1F
100
AcDbEntity
  8
0
  6
Continuous
 62
     7
370
    25
100
AcDbPolyline
 90
      102
 70
   128
 43
0.0
 10
252.3695613233
 20
-61.6281397576
 10
252.4357642655
 20
-59.1329417754
 10
252.6341169658
 20
-56.5709609394
 10
252.9638520361
 20
-53.9521090557
 10
253.4236937955
 20
-51.2865179534
 10
254.0118632056
 20
-48.5845002869
 10
254.7260847531
 20
-45.8565096374
 10
255.5635952537
 20
-43.1131000709
 10
256.5211545419
 20
-40.3648853059
 10
257.5950580069
 20
-37.6224976517
 10
258.7811509247
 20
-34.8965468731
 10
260.0748445324
 20
-32.1975791443
 10
261.4711337806
 20
-29.536036247
 10
262.9646166975
 20
-26.9222151736
 10
264.5495152879
 20
-24.3662282902
 10
266.2196978869
 20
-21.8779642134
 10
267.9687028826
 20
-19.4670495536
 10
269.7897637145
 20
-17.1428116712
 10
271.6758350518
 20
-14.914242591
 10
273.6196200511
 20
-12.7899642139
 10
275.6135985858
 20
-10.7781949602
 10
277.6500563403
 20
-8.8867179745
 10
279.7211146551
 20
-7.1228510135
 10
281.818761008
 20
-5.4934181361
 10
283.9348800127
 20
-4.0047233014
 10
286.061284816
 20
-2.6625259806
 10
288.1897487706
 20
-1.4720188743
 10
290.3120372631
 20
-0.4378078233
 10
292.4199395716
 20
0.4361060108
 10
294.5053006316
 20
1.1463416252
 10
296.5600525861
 20
1.6901512562
 10
298.5762459991
 20
2.06543101
 10
300.54608061
 20
2.2707290021
 10
302.4619355113
 20
2.3052509746
 10
304.3163986325
 20
2.1688633685
 10
306.1022954162
 20
1.8620938411
 10
307.8127165746
 20
1.3861292241
 10
309.4410448205
 20
0.742810932
 10
310.9809804683
 20
-0.0653721616
 10
312.426565806
 20
-1.0352933533
 10
313.772208145
 20
-2.1632002064
 10
315.0127014564
 20
-3.4447290686
 10
316.1432465124
 20
-4.8749219534
 10
317.1594694541
 20
-6.4482457226
 10
318.0574387121
 20
-8.1586134921
 10
318.8336802179
 20
-9.9994081813
 10
319.4851908439
 20
-11.9635081131
 10
320.0094500221
 20
-14.0433145664
 10
320.4044294955
 20
-16.2307811742
 10
320.6686011653
 20
-18.517445053
 10
320.8009430027
 20
-20.8944595446
 10
320.8009430027
 20
-23.3526284416
 10
320.6686011653
 20
-25.8824415662
 10
320.4044294955
 20
-28.4741115627
 10
320.0094500221
 20
-31.1176117635
 10
319.4851908439
 20
-33.8027149799
 10
318.8336802179
 20
-36.5190330691
 10
318.0574387121
 20
-39.2560571241
 10
317.1594694541
 20
-42.0031981306
 10
316.1432465124
 20
-44.7498279336
 10
315.0127014564
 20
-47.4853203562
 10
313.772208145
 20
-50.1990923094
 10
312.426565806
 20
-52.8806447369
 10
310.9809804683
 20
-55.5196032332
 10
309.4410448205
 20
-58.1057581805
 10
307.8127165746
 20
-60.6291042477
 10
306.1022954162
 20
-63.0798790993
 10
304.3163986325
 20
-65.4486011632
 10
302.4619355113
 20
-67.7261063141
 10
300.54608061
 20
-69.9035833269
 10
298.5762459991
 20
-71.9726079661
 10
296.5600525861
 20
-73.9251755774
 10
294.5053006316
 20
-75.7537320559
 10
292.4199395716
 20
-77.4512030718
 10
290.3120372631
 20
-79.0110214397
 10
288.1897487706
 20
-80.4271525251
 10
286.061284816
 20
-81.6941175921
 10
283.9348800127
 20
-82.8070149989
 10
281.818761008
 20
-83.7615391617
 10
279.7211146551
 20
-84.553997212
 10
277.6500563403
 20
-85.1813232834
 10
275.6135985858
 20
-85.6410903733
 10
273.6196200511
 20
-85.9315197321
 10
271.6758350518
 20
-86.051487745
 10
269.7897637145
 20
-86.0005302792
 10
267.9687028826
 20
-85.7788444791
 10
266.2196978869
 20
-85.3872880041
 10
264.5495152879
 20
-84.82737571
 10
262.9646166975
 20
-84.1012737888
 10
261.4711337806
 20
-83.2117913878
 10
260.0748445324
 20
-82.1623697415
 10
258.7811509247
 20
-80.9570688585
 10
257.5950580069
 20
-79.6005518137
 10
256.5211545419
 20
-78.098066708
 10
255.5635952537
 20
-76.4554263644
 10
254.7260847531
 20
-74.6789858394
 10
254.0118632056
 20
-72.7756178361
 10
253.4236937955
 20
-70.7526861156
 10
252.9638520361
 20
-68.6180170078
 10
252.6341169658
 20
-66.3798691328
 10
252.4357642655
 20
-64.0469014498
 10
252.3695613233
 20
-61.6281397576
  0
LWPOLYLINE
  5
BC
330
1F
100
AcDbEntity
  8
0
  6
Continuous
 62
     7
370
    25
100
AcDbPolyline
 90
       66
 70
   128
 43
0.0
 10
435.6918705558
 20
-36.7248319897
 10
436.879044621
 20
-37.4526620312
 10
438.6945297208
 20
-38.7443882316
 10
440.4092108227
 20
-40.193603873
 10
442.0190208926
 20
-41.7968715761
 10
443.5201416388
 20
-43.5503885669
 10
444.9090125689
 20
-45.449995697
 10
446.1823394343
 20
-47.491187308
 10
447.3371020445
 20
-49.669121919
 10
448.3705614302
 20
-51.9786337097
 10
449.2802663398
 20
-54.4142447732
 10
450.0640590538
 20
-56.9701781094
 10
450.7200805025
 20
-59.6403713265
 10
451.2467746754
 20
-62.4184910214
 10
451.6428923123
 20
-65.2979478011
 10
451.9074938657
 20
-68.2719119122
 10
452.0399517302
 20
-71.3333294404
 10
452.0399517302
 20
-74.4749390415
 10
451.9074938657
 20
-77.6892891647
 10
451.6428923123
 20
-80.9687557266
 10
451.2467746754
 20
-84.3055601949
 10
450.7200805025
 20
-87.691788038
 10
450.0640590538
 20
-91.1194074975
 10
449.2802663398
 20
-94.5802886389
 10
448.3705614302
 20
-98.0662226343
 10
447.3371020445
 20
-101.5689412335
 10
446.1823394343
 20
-105.080136375
 10
444.9090125689
 20
-108.5914798918
 10
443.5201416388
 20
-112.0946432651
 10
442.0190208926
 20
-115.5813173783
 10
440.4092108227
 20
-119.0432322256
 10
438.6945297208
 20
-122.4721765276
 10
436.879044621
 20
-125.8600172071
 10
434.9670616535
 20
-129.1987186804
 10
432.9631158306
 20
-132.4803619164
 10
430.8719602903
 20
-135.69716322
 10
428.6985550225
 20
-138.8414926939
 10
426.4480551046
 20
-141.9058923358
 10
424.1257984735
 20
-144.8830937286
 10
421.7372932655
 20
-147.7660352793
 10
419.2882047511
 20
-150.5478789691
 10
416.7843418975
 20
-153.2220265721
 10
414.231643591
 20
-155.7821353057
 10
411.6361645498
 20
-158.2221328747
 10
409.0040609634
 20
-160.5362318747
 10
406.3415758909
 20
-162.7189435182
 10
403.6550244525
 20
-164.7650906546
 10
400.9507788516
 20
-166.6698200488
 10
398.2352532598
 20
-168.4286138932
 10
395.5148886039
 20
-170.0373005231
 10
392.7961372884
 20
-171.4920643115
 10
390.0854478909
 20
-172.7894547194
 10
387.3892498672
 20
-173.9263944802
 10
384.7139383012
 20
-174.9001868983
 10
382.0658587363
 20
-175.7085222457
 10
379.4512921247
 20
-176.3494832403
 10
376.8764399295
 20
-176.8215495933
 10
374.3474094156
 20
-177.1236016157
 10
371.8701991641
 20
-177.2549228733
 10
369.4506848439
 20
-177.2152018866
 10
367.0946052758
 20
-177.0045328694
 10
364.8075488201
 20
-176.6234155054
 10
362.594940122
 20
-176.0727537628
 10
360.462027245
 20
-175.3538537504
 10
358.4138692228
 20
-174.4684206198
 10
356.6982906775
 20
-173.5605522459
  0
LINE
  5
BD
330
1F
100
AcDbEntity
  8
0
  6
Continuous
 62
     7
370
    25
100
AcDbLine
 10
328.3128296227
 20
-130.4513435843
 30
0.0
 11
328.3193022912
 21
-129.4656487027
 31
0.0
  0
LWPOLYLINE
  5
BE
330
1F
100
AcDbEntity
  8
0
  6
Continuous
 62
     7
370
    25
100
AcDbPolyline
 90
      100
 70
   128
 43
0.0
 10
383.3148325862
 20
-34.2002738408
 10
383.4940733238
 20
-34.0939477436
 10
386.2144379796
 20
-32.561768197
 10
388.9299635714
 20
-31.1852829295
 10
391.6342091723
 20
-29.9677568119
 10
394.3207606107
 20
-28.9120776818
 10
396.9832456833
 20
-28.0207494933
 10
399.6153492696
 20
-27.2958863786
 10
402.2108283108
 20
-26.7392076327
 10
404.7635266174
 20
-26.3520336362
 10
407.2673894709
 20
-26.1352827231
 10
409.7164779853
 20
-26.0894690025
 10
412.1049831933
 20
-26.2147011395
 10
414.4272398244
 20
-26.5106820974
 10
416.6777397424
 20
-26.976709842
 10
418.8511450101
 20
-27.611679007
 10
420.9423005504
 20
-28.4140835156
 10
422.9462463733
 20
-29.3820201531
 10
424.8582293409
 20
-30.5131930807
 10
426.6737144406
 20
-31.8049192811
 10
428.3883955425
 20
-33.2541349225
 10
429.9982056124
 20
-34.8574026256
 10
431.4993263586
 20
-36.6109196164
 10
432.8881972887
 20
-38.5105267465
 10
434.1615241542
 20
-40.5517183575
 10
435.3162867644
 20
-42.7296529685
 10
436.34974615
 20
-45.0391647592
 10
437.2594510596
 20
-47.4747758227
 10
438.0432437736
 20
-50.0307091589
 10
438.6992652223
 20
-52.700902376
 10
439.2259593952
 20
-55.4790220709
 10
439.6220770321
 20
-58.3584788506
 10
439.8866785856
 20
-61.3324429617
 10
440.01913645
 20
-64.3938604899
 10
440.01913645
 20
-67.535470091
 10
439.8866785856
 20
-70.7498202142
 10
439.6220770321
 20
-74.0292867762
 10
439.2259593952
 20
-77.3660912444
 10
438.6992652223
 20
-80.7523190875
 10
438.0432437736
 20
-84.179938547
 10
437.2594510596
 20
-87.6408196884
 10
436.34974615
 20
-91.1267536838
 10
435.3162867644
 20
-94.629472283
 10
434.1615241542
 20
-98.1406674245
 10
432.8881972887
 20
-101.6520109414
 10
431.4993263586
 20
-105.1551743146
 10
429.9982056124
 20
-108.6418484278
 10
428.3883955425
 20
-112.1037632751
 10
426.6737144406
 20
-115.5327075771
 10
424.8582293409
 20
-118.9205482566
 10
422.9462463733
 20
-122.2592497299
 10
420.9423005504
 20
-125.5408929659
 10
418.8511450101
 20
-128.7576942695
 10
416.6777397424
 20
-131.9020237434
 10
414.4272398244
 20
-134.9664233854
 10
412.1049831933
 20
-137.9436247781
 10
409.7164779853
 20
-140.8265663288
 10
407.2673894709
 20
-143.6084100186
 10
404.7635266174
 20
-146.2825576216
 10
402.2108283108
 20
-148.8426663552
 10
399.6153492696
 20
-151.2826639243
 10
396.9832456833
 20
-153.5967629242
 10
394.3207606107
 20
-155.7794745677
 10
391.6342091723
 20
-157.8256217041
 10
388.9299635714
 20
-159.7303510983
 10
386.2144379796
 20
-161.4891449427
 10
383.4940733238
 20
-163.0978315726
 10
380.7753220082
 20
-164.552595361
 10
378.0646326107
 20
-165.8499857689
 10
375.3684345871
 20
-166.9869255297
 10
372.693123021
 20
-167.9607179478
 10
370.0450434561
 20
-168.7690532952
 10
367.4304768445
 20
-169.4100142898
 10
364.8556246493
 20
-169.8820806428
 10
362.3265941355
 20
-170.1841326652
 10
359.8493838839
 20
-170.3154539228
 10
357.4298695638
 20
-170.2757329361
 10
355.0737899956
 20
-170.0650639189
 10
352.7867335399
 20
-169.6839465549
 10
350.5741248418
 20
-169.1332848123
 10
348.4412119648
 20
-168.4143847999
 10
346.3930539426
 20
-167.5289516693
 10
344.4345087796
 20
-166.4790855698
 10
342.5702219287
 20
-165.2672766679
 10
340.8046152723
 20
-163.8963992405
 10
339.1418766343
 20
-162.3697048573
 10
337.585949847
 20
-160.6908146688
 10
336.1405253969
 20
-158.863710817
 10
334.8090316711
 20
-156.8927269903
 10
333.5946268256
 20
-154.7825381447
 10
332.5001912946
 20
-152.5381494149
 10
331.5283209581
 20
-150.1648842431
 10
330.6813209852
 20
-147.668371752
 10
329.9612003664
 20
-145.0545333934
 10
329.3696671482
 20
-142.3295689033
 10
328.9081243819
 20
-139.4999415961
 10
328.5776667961
 20
-136.5723630354
 10
328.3790781997
 20
-133.5537771141
 10
328.3128296227
 20
-130.4513435843
 10
328.3128296227
 20
-130.4513435843
  0
LWPOLYLINE
  5
BF
330
1F
100
AcDbEntity
  8
0
  6
Continuous
 62
     7
370
    25
100
AcDbPolyline
 90
       67
 70
   128
 43
0.0
 10
408.0802448038
 20
-41.479736419
 10
409.660175733
 20
-41.7974415313
 10
411.5938283602
 20
-42.3505414022
 10
413.4456502345
 20
-43.0703276276
 10
415.2101147916
 20
-43.9546520824
 10
416.8819561758
 20
-45.0008755948
 10
418.4561849552
 20
-46.2058758227
 10
419.9281030126
 20
-47.5660565719
 10
421.2933175658
 20
-49.0773585283
 10
422.5477542781
 20
-50.735271373
 10
423.6876694174
 20
-52.5348472424
 10
424.7096610287
 20
-54.4707154947
 10
425.6106790875
 20
-56.5370987383
 10
426.3880346017
 20
-58.7278300735
 10
427.0394076369
 20
-61.0363714968
 10
427.5628542401
 20
-63.4558334134
 10
427.9568122407
 20
-65.9789951979
 10
428.2201059134
 20
-68.5983267438
 10
428.3519494863
 20
-71.3060109365
 10
428.3519494863
 20
-74.093966982
 10
428.2201059134
 20
-76.9538745237
 10
427.9568122407
 20
-79.8771984735
 10
427.5628542401
 20
-82.8552144837
 10
427.0394076369
 20
-85.8790349841
 10
426.3880346017
 20
-88.9396357059
 10
425.6106790875
 20
-92.0278826136
 10
424.7096610287
 20
-95.1345591646
 10
423.6876694174
 20
-98.2503938151
 10
422.5477542781
 20
-101.3660876899
 10
421.2933175658
 20
-104.4723423338
 10
419.9281030126
 20
-107.5598874621
 10
418.4561849552
 20
-110.6195086267
 10
416.8819561758
 20
-113.6420747154
 10
415.2101147916
 20
-116.6185652031
 10
413.4456502345
 20
-119.5400970723
 10
411.5938283602
 20
-122.3979513237
 10
409.660175733
 20
-125.1835989969
 10
407.6504631323
 20
-127.8887266244
 10
405.5706883305
 20
-130.5052610422
 10
403.4270581929
 20
-133.0253934831
 10
401.2259701545
 20
-135.4416028815
 10
398.9739931269
 20
-137.7466783189
 10
396.6778478948
 20
-139.9337405441
 10
394.3443870581
 20
-141.996262504
 10
391.9805745809
 20
-143.9280888223
 10
389.5934650088
 20
-145.7234541701
 10
387.1901824149
 20
-147.3770004715
 10
384.7778991391
 20
-148.8837928944
 10
382.3638143828
 20
-150.2393345781
 10
379.9551327237
 20
-151.4395800533
 10
377.5590426145
 20
-152.4809473159
 10
375.18269493
 20
-153.3603285166
 10
372.8331816256
 20
-154.0750992363
 10
370.5175145724
 20
-154.6231263182
 10
368.2426046311
 20
-155.0027742342
 10
366.015241027
 20
-155.2129099656
 10
363.8420710886
 20
-155.2529063848
 10
361.729580409
 20
-155.1226441269
 10
359.6840734908
 20
-154.8225119455
 10
357.7116549305
 20
-154.3534055531
 10
355.8182112005
 20
-153.7167249474
 10
354.0093930808
 20
-152.9143702338
 10
352.2905987958
 20
-151.9487359539
 10
350.6669579032
 20
-150.8227039401
 10
349.1433159854
 20
-149.5396347144
 10
347.7242201889
 20
-148.1033574596
 10
347.007878883
 20
-147.2716399053
  0
ENDSEC
  0
SECTION
  2
OBJECTS
  0
DICTIONARY
  5
C
330
0
100
AcDbDictionary
281
     1
  3
ACAD_GROUP
350
D
  3
ACAD_LAYOUT
350
1A
  3
ACAD_MLINESTYLE
350
17
  3
ACAD_PLOTSETTINGS
350
19
  3
ACAD_PLOTSTYLENAME
350
E
  3
ACAD_SCALELIST
350
47
  0
DICTIONARY
  5
D
102
{ACAD_REACTORS
330
C
102
}
330
C
100
AcDbDictionary
281
     1
  0
DICTIONARY
  5
1A
102
{ACAD_REACTORS
330
C
102
}
330
C
100
AcDbDictionary
281
     1
  3
Layout1
350
1E
  3
Layout2
350
26
  3
Model
350
22
  0
DICTIONARY
  5
17
102
{ACAD_REACTORS
330
C
102
}
330
C
100
AcDbDictionary
281
     1
  3
Standard
350
18
  0
DICTIONARY
  5
19
102
{ACAD_REACTORS
330
C
102
}
330
C
100
AcDbDictionary
281
     1
  0
ACDBDICTIONARYWDFLT
  5
E
102
{ACAD_REACTORS
330
C
102
}
330
C
100
AcDbDictionary
281
     1
  3
Normal
350
F
100
AcDbDictionaryWithDefault
340
F
  0
DICTIONARY
  5
47
102
{ACAD_REACTORS
330
C
102
}
330
C
100
AcDbDictionary
281
     1
  3
A0
350
48
  3
A1
350
49
  3
A2
350
4A
  3
A3
350
4B
  3
A4
350
4C
  3
A5
350
4D
  3
A6
350
4E
  3
A7
350
4F
  3
A8
350
50
  3
A9
350
51
  3
B0
350
52
  3
B1
350
53
  3
B2
350
54
  3
B3
350
55
  3
B4
350
56
  3
B5
350
57
  3
B6
350
58
  3
B7
350
59
  3
B8
350
5A
  3
B9
350
5B
  3
C0
350
5C
  3
C1
350
5D
  3
C2
350
5E
  3
C3
350
5F
  3
C4
350
60
  3
C5
350
61
  3
C6
350
62
  3
C7
350
63
  3
C8
350
64
  3
C9
350
65
  3
D0
350
66
  3
D1
350
67
  3
D2
350
68
  0
LAYOUT
  5
1E
102
{ACAD_REACTORS
330
1A
102
}
330
1A
100
AcDbPlotSettings
  1

  2
none_device
  4

  6

 40
0.0
 41
0.0
 42
0.0
 43
0.0
 44
0.0
 45
0.0
 46
0.0
 47
0.0
 48
0.0
 49
0.0
140
0.0
141
0.0
142
1.0
143
1.0
 70
   688
 72
     1
 73
     0
 74
     5
  7

 75
    16
147
1.0
148
0.0
149
0.0
100
AcDbLayout
  1
Layout1
 70
     1
 71
     1
 10
0.0
 20
0.0
 11
420.0
 21
297.0
 12
0.0
 22
0.0
 32
0.0
 14
1.0000000000E+20
 24
1.0000000000E+20
 34
1.0000000000E+20
 15
-1.0000000000E+20
 25
-1.0000000000E+20
 35
-1.0000000000E+20
146
0.0
 13
0.0
 23
0.0
 33
0.0
 16
1.0
 26
0.0
 36
0.0
 17
0.0
 27
1.0
 37
0.0
 76
     0
330
1B
  0
LAYOUT
  5
26
102
{ACAD_REACTORS
330
1A
102
}
330
1A
100
AcDbPlotSettings
  1

  2
none_device
  4

  6

 40
0.0
 41
0.0
 42
0.0
 43
0.0
 44
0.0
 45
0.0
 46
0.0
 47
0.0
 48
0.0
 49
0.0
140
0.0
141
0.0
142
1.0
143
1.0
 70
   688
 72
     1
 73
     0
 74
     5
  7

 75
    16
147
1.0
148
0.0
149
0.0
100
AcDbLayout
  1
Layout2
 70
     1
 71
     2
 10
0.0
 20
0.0
 11
0.0
 21
0.0
 12
0.0
 22
0.0
 32
0.0
 14
0.0
 24
0.0
 34
0.0
 15
0.0
 25
0.0
 35
0.0
146
0.0
 13
0.0
 23
0.0
 33
0.0
 16
1.0
 26
0.0
 36
0.0
 17
0.0
 27
1.0
 37
0.0
 76
     0
330
23
  0
LAYOUT
  5
22
102
{ACAD_REACTORS
330
1A
102
}
330
1A
100
AcDbPlotSettings
  1

  2
none_device
  4
Letter_(8.50_x_11.00_Inches)
  6

 40
6.35
 41
6.35
 42
6.35000508
 43
6.35000508
 44
215.9
 45
279.4
 46
0.0
 47
0.0
 48
0.0
 49
0.0
140
0.0
141
0.0
142
1.0
143
1.0
 70
  1712
 72
     1
 73
     0
 74
     0
  7

 75
     0
147
1.0
148
0.0
149
0.0
100
AcDbLayout
  1
Model
 70
     1
 71
     0
 10
0.0
 20
0.0
 11
279.4
 21
215.9
 12
0.0
 22
0.0
 32
0.0
 14
0.0
 24
0.0
 34
0.0
 15
279.4
 25
215.9
 35
0.0
146
0.0
 13
0.0
 23
0.0
 33
0.0
 16
1.0
 26
0.0
 36
0.0
 17
0.0
 27
1.0
 37
0.0
 76
     0
330
1F
331
29
  0
MLINESTYLE
  5
18
102
{ACAD_REACTORS
330
17
102
}
330
17
100
AcDbMlineStyle
  2
Standard
 70
     0
  3

 62
   256
 51
90.0
 52
90.0
 71
     2
 49
0.5
 62
   256
  6
BYLAYER
 49
-0.5
 62
   256
  6
BYLAYER
  0
ACDBPLACEHOLDER
  5
F
102
{ACAD_REACTORS
330
E
102
}
330
E
  0
SCALE
  5
48
102
{ACAD_REACTORS
330
47
102
}
330
47
100
AcDbScale
 70
     0
300
1:1
140
1.0
141
1.0
290
     1
  0
SCALE
  5
49
102
{ACAD_REACTORS
330
47
102
}
330
47
100
AcDbScale
 70
     0
300
1:2
140
1.0
141
2.0
290
     0
  0
SCALE
  5
4A
102
{ACAD_REACTORS
330
47
102
}
330
47
100
AcDbScale
 70
     0
300
1:4
140
1.0
141
4.0
290
     0
  0
SCALE
  5
4B
102
{ACAD_REACTORS
330
47
102
}
330
47
100
AcDbScale
 70
     0
300
1:5
140
1.0
141
5.0
290
     0
  0
SCALE
  5
4C
102
{ACAD_REACTORS
330
47
102
}
330
47
100
AcDbScale
 70
     0
300
1:8
140
1.0
141
8.0
290
     0
  0
SCALE
  5
4D
102
{ACAD_REACTORS
330
47
102
}
330
47
100
AcDbScale
 70
     0
300
1:10
140
1.0
141
10.0
290
     0
  0
SCALE
  5
4E
102
{ACAD_REACTORS
330
47
102
}
330
47
100
AcDbScale
 70
     0
300
1:16
140
1.0
141
16.0
290
     0
  0
SCALE
  5
4F
102
{ACAD_REACTORS
330
47
102
}
330
47
100
AcDbScale
 70
     0
300
1:20
140
1.0
141
20.0
290
     0
  0
SCALE
  5
50
102
{ACAD_REACTORS
330
47
102
}
330
47
100
AcDbScale
 70
     0
300
1:30
140
1.0
141
30.0
290
     0
  0
SCALE
  5
51
102
{ACAD_REACTORS
330
47
102
}
330
47
100
AcDbScale
 70
     0
300
1:40
140
1.0
141
40.0
290
     0
  0
SCALE
  5
52
102
{ACAD_REACTORS
330
47
102
}
330
47
100
AcDbScale
 70
     0
300
1:50
140
1.0
141
50.0
290
     0
  0
SCALE
  5
53
102
{ACAD_REACTORS
330
47
102
}
330
47
100
AcDbScale
 70
     0
300
1:100
140
1.0
141
100.0
290
     0
  0
SCALE
  5
54
102
{ACAD_REACTORS
330
47
102
}
330
47
100
AcDbScale
 70
     0
300
2:1
140
2.0
141
1.0
290
     0
  0
SCALE
  5
55
102
{ACAD_REACTORS
330
47
102
}
330
47
100
AcDbScale
 70
     0
300
4:1
140
4.0
141
1.0
290
     0
  0
SCALE
  5
56
102
{ACAD_REACTORS
330
47
102
}
330
47
100
AcDbScale
 70
     0
300
8:1
140
8.0
141
1.0
290
     0
  0
SCALE
  5
57
102
{ACAD_REACTORS
330
47
102
}
330
47
100
AcDbScale
 70
     0
300
10:1
140
10.0
141
1.0
290
     0
  0
SCALE
  5
58
102
{ACAD_REACTORS
330
47
102
}
330
47
100
AcDbScale
 70
     0
300
100:1
140
100.0
141
1.0
290
     0
  0
SCALE
  5
59
102
{ACAD_REACTORS
330
47
102
}
330
47
100
AcDbScale
 70
     0
300
1/128" = 1'-0"
140
0.0078125
141
12.0
290
     0
  0
SCALE
  5
5A
102
{ACAD_REACTORS
330
47
102
}
330
47
100
AcDbScale
 70
     0
300
1/64" = 1'-0"
140
0.015625
141
12.0
290
     0
  0
SCALE
  5
5B
102
{ACAD_REACTORS
330
47
102
}
330
47
100
AcDbScale
 70
     0
300
1/32" = 1'-0"
140
0.03125
141
12.0
290
     0
  0
SCALE
  5
5C
102
{ACAD_REACTORS
330
47
102
}
330
47
100
AcDbScale
 70
     0
300
1/16" = 1'-0"
140
0.0625
141
12.0
290
     0
  0
SCALE
  5
5D
102
{ACAD_REACTORS
330
47
102
}
330
47
100
AcDbScale
 70
     0
300
3/32" = 1'-0"
140
0.09375
141
12.0
290
     0
  0
SCALE
  5
5E
102
{ACAD_REACTORS
330
47
102
}
330
47
100
AcDbScale
 70
     0
300
1/8" = 1'-0"
140
0.125
141
12.0
290
     0
  0
SCALE
  5
5F
102
{ACAD_REACTORS
330
47
102
}
330
47
100
AcDbScale
 70
     0
300
3/16" = 1'-0"
140
0.1875
141
12.0
290
     0
  0
SCALE
  5
60
102
{ACAD_REACTORS
330
47
102
}
330
47
100
AcDbScale
 70
     0
300
1/4" = 1'-0"
140
0.25
141
12.0
290
     0
  0
SCALE
  5
61
102
{ACAD_REACTORS
330
47
102
}
330
47
100
AcDbScale
 70
     0
300
3/8" = 1'-0"
140
0.375
141
12.0
290
     0
  0
SCALE
  5
62
102
{ACAD_REACTORS
330
47
102
}
330
47
100
AcDbScale
 70
     0
300
1/2" = 1'-0"
140
0.5
141
12.0
290
     0
  0
SCALE
  5
63
102
{ACAD_REACTORS
330
47
102
}
330
47
100
AcDbScale
 70
     0
300
3/4" = 1'-0"
140
0.75
141
12.0
290
     0
  0
SCALE
  5
64
102
{ACAD_REACTORS
330
47
102
}
330
47
100
AcDbScale
 70
     0
300
1" = 1'-0"
140
1.0
141
12.0
290
     0
  0
SCALE
  5
65
102
{ACAD_REACTORS
330
47
102
}
330
47
100
AcDbScale
 70
     0
300
1-1/2" = 1'-0"
140
1.5
141
12.0
290
     0
  0
SCALE
  5
66
102
{ACAD_REACTORS
330
47
102
}
330
47
100
AcDbScale
 70
     0
300
3" = 1'-0"
140
3.0
141
12.0
290
     0
  0
SCALE
  5
67
102
{ACAD_REACTORS
330
47
102
}
330
47
100
AcDbScale
 70
     0
300
6" = 1'-0"
140
6.0
141
12.0
290
     0
  0
SCALE
  5
68
102
{ACAD_REACTORS
330
47
102
}
330
47
100
AcDbScale
 70
     0
300
1'-0" = 1'-0"
140
12.0
141
12.0
290
     0
  0
ENDSEC
  0
EOF
